0
SECTION
2
HEADER
9
$INSUNITS
70
4
9
$ACADVER
1
AC1014
9
$HANDSEED
5
FFFF
0
ENDSEC
0
SECTION
2
TABLES
0
TABLE
2
VPORT
5
8
100
AcDbSymbolTable
0
ENDTAB
0
TABLE
2
LTYPE
5
5
100
AcDbSymbolTable
0
LTYPE
5
14
100
AcDbSymbolTableRecord
100
AcDbLinetypeTableRecord
2
BYBLOCK
70
0
0
LTYPE
5
15
100
AcDbSymbolTableRecord
100
AcDbLinetypeTableRecord
2
BYLAYER
70
0
0
ENDTAB
0
TABLE
2
LAYER
5
2
100
AcDbSymbolTable
70
2
0
LAYER
5
50
100
AcDbSymbolTableRecord
100
AcDbLayerTableRecord
2
0
70
0
6
CONTINUOUS
0
ENDTAB
0
TABLE
2
STYLE
5
3
100
AcDbSymbolTable
70
1
0
STYLE
5
11
100
AcDbSymbolTableRecord
100
AcDbTextStyleTableRecord
2
STANDARD
70
0
0
ENDTAB
0
TABLE
2
VIEW
5
6
100
AcDbSymbolTable
70
0
0
ENDTAB
0
TABLE
2
UCS
5
7
100
AcDbSymbolTable
70
0
0
ENDTAB
0
TABLE
2
APPID
5
9
100
AcDbSymbolTable
70
2
0
APPID
5
12
100
AcDbSymbolTableRecord
100
AcDbRegAppTableRecord
2
ACAD
70
0
0
ENDTAB
0
TABLE
2
DIMSTYLE
5
A
100
AcDbSymbolTable
70
1
0
ENDTAB
0
TABLE
2
BLOCK_RECORD
5
1
100
AcDbSymbolTable
70
1
0
BLOCK_RECORD
5
1F
100
AcDbSymbolTableRecord
100
AcDbBlockTableRecord
2
*MODEL_SPACE
0
BLOCK_RECORD
5
1B
100
AcDbSymbolTableRecord
100
AcDbBlockTableRecord
2
*PAPER_SPACE
0
ENDTAB
0
ENDSEC
0
SECTION
2
BLOCKS
0
BLOCK
5
20
100
AcDbEntity
100
AcDbBlockBegin
2
*MODEL_SPACE
0
ENDBLK
5
21
100
AcDbEntity
100
AcDbBlockEnd
0
BLOCK
5
1C
100
AcDbEntity
100
AcDbBlockBegin
2
*PAPER_SPACE
0
ENDBLK
5
1D
100
AcDbEntity
100
AcDbBlockEnd
0
ENDSEC
0
SECTION
2
ENTITIES
0
LWPOLYLINE
5
100
100
AcDbEntity
8
0
100
AcDbPolyline
90
4
70
1
43
0.0
10
46.692658057101966
20
83.500000000004206
42
-0.99999999999999989
10
46.692658057100118
20
77.500000000002274
10
38.692658057097091
20
77.500000000002558
42
-0.99999999999999989
10
38.692658057098228
20
83.500000000001648
0
LWPOLYLINE
5
101
100
AcDbEntity
8
0
100
AcDbPolyline
90
4
70
1
43
0.0
10
-46.692658057095429
20
-83.500000000000512
10
-38.692658057098654
20
-83.499999999999091
42
0.99999999999999989
10
-38.692658057095102
20
-77.499999999998863
10
-46.692658057098413
20
-77.499999999999147
42
0.99999999999999989
0
LWPOLYLINE
5
102
100
AcDbEntity
8
0
100
AcDbPolyline
90
4
70
1
43
0.0
10
-38.692658057098583
20
83.500000000001648
10
-46.692658057102818
20
83.499999999999375
42
0.99999999999999989
10
-46.692658057102392
20
77.499999999999147
10
-38.692658057100573
20
77.500000000000853
42
0.99999999999999989
0
LWPOLYLINE
5
103
100
AcDbEntity
8
0
100
AcDbPolyline
90
4
70
1
43
0.0
10
46.692658057108929
20
-77.499999999997726
10
38.692658057101283
20
-77.499999999997158
42
0.99999999999999989
10
38.692658057101568
20
-83.499999999997954
10
46.692658057101397
20
-83.499999999997385
42
0.99999999999999989
0
ARC
5
104
100
AcDbEntity
8
0
100
AcDbCircle
10
-55
20
-115.99999999999341
30
0
40
2.5000000000011369
210
0
220
0
230
1
100
AcDbArc
50
180
51
270.00000000004235
0
LINE
5
105
100
AcDbEntity
8
0
100
AcDbLine
10
-54.999999999998153
20
-118.49999999999454
30
0
11
-46.999999999998323
21
-118.49999999999397
31
0
0
LINE
5
106
100
AcDbEntity
8
0
100
AcDbLine
10
-46.999999999998323
20
-118.49999999999397
30
0
11
-46.999999999998963
21
-125.9999999999954
31
0
0
ARC
5
107
100
AcDbEntity
8
0
100
AcDbCircle
10
-45.999999999999162
20
-125.99999999999483
30
0
40
0.99999999999980105
210
0
220
0
230
1
100
AcDbArc
50
180
51
269.99999999999187
0
LINE
5
108
100
AcDbEntity
8
0
100
AcDbLine
10
-45.999999999999304
20
-126.99999999999477
30
0
11
46.000000000000369
21
-126.99999999999761
31
0
0
ARC
5
109
100
AcDbEntity
8
0
100
AcDbCircle
10
46.000000000001648
20
-125.99999999999881
30
0
40
0.99999999999880629
210
0
220
0
230
1
100
AcDbArc
50
-90.000000000073285
51
0
0
LINE
5
110
100
AcDbEntity
8
0
100
AcDbLine
10
47.000000000000526
20
-125.99999999999824
30
0
11
47.000000000001236
21
-118.49999999999653
31
0
0
LINE
5
111
100
AcDbEntity
8
0
100
AcDbLine
10
47.000000000001236
20
-118.49999999999653
30
0
11
55.000000000001279
21
-118.49999999999568
31
0
0
ARC
5
112
100
AcDbEntity
8
0
100
AcDbCircle
10
55.000000000001705
20
-115.99999999999682
30
0
40
2.4999999999988631
210
0
220
0
230
1
100
AcDbArc
50
269.99999999999022
51
360
0
LINE
5
113
100
AcDbEntity
8
0
100
AcDbLine
10
57.500000000000711
20
-115.99999999999795
30
0
11
57.500000000002132
21
-91.999999999997897
31
0
0
LINE
5
114
100
AcDbEntity
8
0
100
AcDbLine
10
57.500000000002132
20
-91.999999999997897
30
0
11
55.500000000002174
21
-91.999999999997897
31
0
0
LINE
5
115
100
AcDbEntity
8
0
100
AcDbLine
10
55.500000000002174
20
-91.999999999997897
30
0
11
55.500000000002174
21
-67.999999999996703
31
0
0
LINE
5
116
100
AcDbEntity
8
0
100
AcDbLine
10
55.500000000002174
20
-67.999999999996703
30
0
11
61.500000000002686
21
-67.999999999997556
31
0
0
ARC
5
117
100
AcDbEntity
8
0
100
AcDbCircle
10
61.500000000002828
20
-65.499999999996987
30
0
40
2.5000000000005684
210
0
220
0
230
1
100
AcDbArc
50
269.99999999999676
51
360
0
LINE
5
118
100
AcDbEntity
8
0
100
AcDbLine
10
64.000000000003325
20
-65.49999999999784
30
0
11
64.000000000001691
21
-54.499999999997897
31
0
0
ARC
5
119
100
AcDbEntity
8
0
100
AcDbCircle
10
61.500000000001691
20
-54.499999999997897
30
0
40
2.5
210
0
220
0
230
1
100
AcDbArc
50
0
51
89.999999999967429
0
LINE
5
120
100
AcDbEntity
8
0
100
AcDbLine
10
61.500000000003112
20
-51.999999999997897
30
0
11
57.500000000003197
21
-51.999999999997613
31
0
0
LINE
5
121
100
AcDbEntity
8
0
100
AcDbLine
10
57.500000000003197
20
-51.999999999997613
30
0
11
57.500000000005755
21
52.000000000001307
31
0
0
LINE
5
122
100
AcDbEntity
8
0
100
AcDbLine
10
57.500000000005755
20
52.000000000001307
30
0
11
61.500000000005812
21
52.000000000003581
31
0
0
ARC
5
123
100
AcDbEntity
8
0
100
AcDbCircle
10
61.500000000008228
20
54.500000000001023
30
0
40
2.499999999997442
210
0
220
0
230
1
100
AcDbArc
50
-90.000000000055365
51
0
0
LINE
5
124
100
AcDbEntity
8
0
100
AcDbLine
10
64.000000000005741
20
54.500000000001023
30
0
11
64.000000000006452
21
65.500000000001251
31
0
0
ARC
5
125
100
AcDbEntity
8
0
100
AcDbCircle
10
61.500000000004462
20
65.500000000000114
30
0
40
2.5000000000019895
210
0
220
-0
230
1
100
AcDbArc
50
0
51
89.999999999959286
0
LINE
5
126
100
AcDbEntity
8
0
100
AcDbLine
10
61.500000000006239
20
68.000000000002117
30
0
11
55.500000000006864
21
68.000000000000966
31
0
0
LINE
5
127
100
AcDbEntity
8
0
100
AcDbLine
10
55.500000000006864
20
68.000000000000966
30
0
11
55.500000000006935
21
92.000000000001023
31
0
0
LINE
5
128
100
AcDbEntity
8
0
100
AcDbLine
10
55.500000000006935
20
92.000000000001023
30
0
11
57.500000000006963
21
92.000000000001023
31
0
0
LINE
5
129
100
AcDbEntity
8
0
100
AcDbLine
10
57.500000000006963
20
92.000000000001023
30
0
11
57.500000000007248
21
116.00000000000307
31
0
0
ARC
5
130
100
AcDbEntity
8
0
100
AcDbCircle
10
55.000000000004917
20
116.00000000000023
30
0
40
2.500000000002327
210
0
220
-0
230
1
100
AcDbArc
50
0
51
89.999999999938453
0
LINE
5
131
100
AcDbEntity
8
0
100
AcDbLine
10
55.000000000007603
20
118.50000000000249
30
0
11
47.000000000007631
21
118.50000000000108
31
0
0
LINE
5
132
100
AcDbEntity
8
0
100
AcDbLine
10
47.000000000007631
20
118.50000000000108
30
0
11
47.000000000005855
21
126.00000000000108
31
0
0
ARC
5
133
100
AcDbEntity
8
0
100
AcDbCircle
10
46.000000000007617
20
126.00000000000476
30
0
40
0.99999999999823785
210
0
220
0
230
1
100
AcDbArc
50
0
51
89.999999999987793
0
LINE
5
134
100
AcDbEntity
8
0
100
AcDbLine
10
46.00000000000783
20
127.00000000000301
30
0
11
-45.999999999992127
21
127.00000000000273
31
0
0
ARC
5
135
100
AcDbEntity
8
0
100
AcDbCircle
10
-45.999999999991779
20
126.00000000000308
30
0
40
0.99999999999964118
210
0
220
0
230
1
100
AcDbArc
50
90.000000000019938
51
180
0
LINE
5
136
100
AcDbEntity
8
0
100
AcDbLine
10
-46.999999999991282
20
126.00000000000477
30
0
11
-46.999999999992355
21
118.50000000000506
31
0
0
LINE
5
137
100
AcDbEntity
8
0
100
AcDbLine
10
-46.999999999992355
20
118.50000000000506
30
0
11
-54.999999999992326
21
118.50000000000591
31
0
0
ARC
5
138
100
AcDbEntity
8
0
100
AcDbCircle
10
-54.999999999990962
20
116.00000000000504
30
0
40
2.5000000000008704
210
0
220
0
230
1
100
AcDbArc
50
90.000000000031264
51
180
0
LINE
5
139
100
AcDbEntity
8
0
100
AcDbLine
10
-57.499999999991758
20
116.00000000000506
30
0
11
-57.499999999993534
21
75.000000000006253
31
0
0
LINE
5
140
100
AcDbEntity
8
0
100
AcDbLine
10
-57.499999999993534
20
75.000000000006253
30
0
11
-61.49999999999352
21
75.000000000003979
31
0
0
ARC
5
141
100
AcDbEntity
8
0
100
AcDbCircle
10
-61.499999999994159
20
72.500000000005116
30
0
40
2.4999999999988631
210
0
220
-0
230
1
100
AcDbArc
50
89.999999999985349
51
180
0
LINE
5
142
100
AcDbEntity
8
0
100
AcDbLine
10
-63.999999999993022
20
72.500000000006537
30
0
11
-63.999999999993804
21
67.500000000005684
31
0
0
ARC
5
143
100
AcDbEntity
8
0
100
AcDbCircle
10
-61.499999999994373
20
67.500000000005116
30
0
40
2.4999999999994316
210
0
220
0
230
1
100
AcDbArc
50
180
51
270.00000000000978
0
LINE
5
144
100
AcDbEntity
8
0
100
AcDbLine
10
-61.499999999993946
20
65.000000000005684
30
0
11
-57.49999999999396
21
65.000000000006537
31
0
0
LINE
5
145
100
AcDbEntity
8
0
100
AcDbLine
10
-57.49999999999396
20
65.000000000006537
30
0
11
-57.499999999996234
21
-39.999999999993463
31
0
0
LINE
5
146
100
AcDbEntity
8
0
100
AcDbLine
10
-57.499999999996234
20
-39.999999999993463
30
0
11
-61.49999999999622
21
-39.999999999994031
31
0
0
ARC
5
147
100
AcDbEntity
8
0
100
AcDbCircle
10
-61.499999999995588
20
-42.499999999993747
30
0
40
2.4999999999997158
210
0
220
0
230
1
100
AcDbArc
50
90.000000000014495
51
180
0
LINE
5
148
100
AcDbEntity
8
0
100
AcDbLine
10
-63.999999999995296
20
-42.499999999993463
30
0
11
-63.999999999997996
21
-47.499999999993463
31
0
0
ARC
5
149
100
AcDbEntity
8
0
100
AcDbCircle
10
-61.499999999996852
20
-47.499999999993463
30
0
40
2.5000000000011458
210
0
220
0
230
1
100
AcDbArc
50
180
51
270.0000000000145
0
LINE
5
150
100
AcDbEntity
8
0
100
AcDbLine
10
-61.49999999999622
20
-49.9999999999946
30
0
11
-57.499999999996234
21
-49.999999999993747
31
0
0
LINE
5
151
100
AcDbEntity
8
0
100
AcDbLine
10
-57.499999999996234
20
-49.999999999993747
30
0
11
-57.499999999996589
21
-64.999999999993463
31
0
0
LINE
5
152
100
AcDbEntity
8
0
100
AcDbLine
10
-57.499999999996589
20
-64.999999999993463
30
0
11
-61.499999999996646
21
-64.999999999993747
31
0
0
ARC
5
153
100
AcDbEntity
8
0
100
AcDbCircle
10
-61.49999999999558
20
-67.499999999993747
30
0
40
2.5
210
0
220
0
230
1
100
AcDbArc
50
90.000000000024428
51
180
0
LINE
5
154
100
AcDbEntity
8
0
100
AcDbLine
10
-63.999999999995659
20
-67.499999999993463
30
0
11
-63.999999999998138
21
-72.499999999993747
31
0
0
ARC
5
155
100
AcDbEntity
8
0
100
AcDbCircle
10
-61.49999999999757
20
-72.499999999993463
30
0
40
2.5000000000005684
210
0
220
0
230
1
100
AcDbArc
50
180
51
270.00000000000978
0
LINE
5
156
100
AcDbEntity
8
0
100
AcDbLine
10
-61.499999999997144
20
-74.999999999994031
30
0
11
-57.499999999997158
21
-74.999999999993747
31
0
0
LINE
5
157
100
AcDbEntity
8
0
100
AcDbLine
10
-57.499999999997158
20
-74.999999999993747
30
0
11
-57.499999999998366
21
-115.9999965720786
31
0
0
LINE
5
158
100
AcDbEntity
8
0
100
AcDbLine
10
57.500000000000639
20
-51.999999999997897
30
0
11
57.499999999998082
21
52.000000000001023
31
0
0
LWPOLYLINE
5
159
100
AcDbEntity
8
0
100
AcDbPolyline
90
19
70
1
43
0.0
10
-38.166666666667354
20
-60.627826171263628
42
-0.31267814301710184
10
-30.268945542595532
20
-65.177741763962956
42
0.28992651085088056
10
-28.00924102465784
20
-66.608286065201526
10
27.982200000004998
20
-66.608286065194577
42
0.41421356237307005
10
30.482200000004678
20
-64.108286065194761
10
30.482200000004902
20
-45.39999999999867
42
-0.18884899649267864
10
32.078199999978892
20
-41.325103191516703
42
0.18884899649459119
10
33.142200000005047
20
-38.608505319196603
10
33.142200000003911
20
55.025048040801536
42
0.19891236738489515
10
31.970627124699025
20
57.853475165597601
10
29.786913236950063
20
60.037189053348726
42
0.20886372104365117
10
26.80565740816008
20
61.205841285739368
42
-0.32838888948598216
10
18.957527667343772
20
66.533333333339584
42
0.31783724519586598
10
15.186291501003346
20
69.200000000001978
10
-27.253049233996364
20
69.200000000002916
42
0.3089604114329394
10
-30.979213148924778
20
66.65454545456106
42
-0.33407248433279046
10
-38.13636363637432
20
62.228985631730978
42
0.44113547159658184
10
-42.49999999999627
20
58.245548849877395
10
-42.499999999994749
20
-56.641739256903165
42
0.43886622996577984
0
CIRCLE
5
160
100
AcDbEntity
8
0
100
AcDbCircle
10
-37.49999999999828
20
-68.600000000001174
30
0
40
2.1250000000005542
210
0
220
0
230
1
0
CIRCLE
5
161
100
AcDbEntity
8
0
100
AcDbCircle
10
36.482200000008959
20
-45.399999999999572
30
0
40
2.1250000000006963
210
0
220
0
230
1
0
CIRCLE
5
162
100
AcDbEntity
8
0
100
AcDbCircle
10
26.500000000002721
20
69.200000000004962
30
0
40
2.1250000000011227
210
0
220
0
230
1
0
CIRCLE
5
163
100
AcDbEntity
8
0
100
AcDbCircle
10
-37.500000000026674
20
69.200000000013603
30
0
40
2.1249999999998437
210
0
220
0
230
1
0
ENDSEC
0
SECTION
2
OBJECTS
0
DICTIONARY
5
C
100
AcDbDictionary
3
ACAD_GROUP
350
D
3
ACAD_MLINESTYLE
350
17
0
DICTIONARY
5
D
100
AcDbDictionary
0
DICTIONARY
5
1A
330
C
100
AcDbDictionary
0
DICTIONARY
5
17
100
AcDbDictionary
0
ENDSEC
0
EOF
