0
SECTION
2
HEADER
9
$INSUNITS
70
4
9
$ACADVER
1
AC1014
9
$HANDSEED
5
FFFF
0
ENDSEC
0
SECTION
2
TABLES
0
TABLE
2
VPORT
5
8
100
AcDbSymbolTable
0
ENDTAB
0
TABLE
2
LTYPE
5
5
100
AcDbSymbolTable
0
LTYPE
5
14
100
AcDbSymbolTableRecord
100
AcDbLinetypeTableRecord
2
BYBLOCK
70
0
0
LTYPE
5
15
100
AcDbSymbolTableRecord
100
AcDbLinetypeTableRecord
2
BYLAYER
70
0
0
ENDTAB
0
TABLE
2
LAYER
5
2
100
AcDbSymbolTable
70
2
0
LAYER
5
50
100
AcDbSymbolTableRecord
100
AcDbLayerTableRecord
2
0
70
0
6
CONTINUOUS
0
ENDTAB
0
TABLE
2
STYLE
5
3
100
AcDbSymbolTable
70
1
0
STYLE
5
11
100
AcDbSymbolTableRecord
100
AcDbTextStyleTableRecord
2
STANDARD
70
0
0
ENDTAB
0
TABLE
2
VIEW
5
6
100
AcDbSymbolTable
70
0
0
ENDTAB
0
TABLE
2
UCS
5
7
100
AcDbSymbolTable
70
0
0
ENDTAB
0
TABLE
2
APPID
5
9
100
AcDbSymbolTable
70
2
0
APPID
5
12
100
AcDbSymbolTableRecord
100
AcDbRegAppTableRecord
2
ACAD
70
0
0
ENDTAB
0
TABLE
2
DIMSTYLE
5
A
100
AcDbSymbolTable
70
1
0
ENDTAB
0
TABLE
2
BLOCK_RECORD
5
1
100
AcDbSymbolTable
70
1
0
BLOCK_RECORD
5
1F
100
AcDbSymbolTableRecord
100
AcDbBlockTableRecord
2
*MODEL_SPACE
0
BLOCK_RECORD
5
1B
100
AcDbSymbolTableRecord
100
AcDbBlockTableRecord
2
*PAPER_SPACE
0
ENDTAB
0
ENDSEC
0
SECTION
2
BLOCKS
0
BLOCK
5
20
100
AcDbEntity
100
AcDbBlockBegin
2
*MODEL_SPACE
0
ENDBLK
5
21
100
AcDbEntity
100
AcDbBlockEnd
0
BLOCK
5
1C
100
AcDbEntity
100
AcDbBlockBegin
2
*PAPER_SPACE
0
ENDBLK
5
1D
100
AcDbEntity
100
AcDbBlockEnd
0
ENDSEC
0
SECTION
2
ENTITIES
0
LWPOLYLINE
5
100
100
AcDbEntity
8
0
100
AcDbPolyline
90
19
70
1
43
0.0
10
23.778563636375615
20
62.228985631730623
42
-0.33407248433279085
10
16.621413148925889
20
66.654545454560449
42
0.30896041143293884
10
12.895249233997394
20
69.200000000002149
10
-29.544091501002324
20
69.199999999999591
42
0.31783724519586465
10
-33.315327667339105
20
66.533333333335804
42
-0.32838888948598194
10
-41.163457408158884
20
61.205841285732788
42
0.20886372104365225
10
-44.144713236948689
20
60.037189053345799
10
-46.328427124697562
20
57.853475165594581
42
0.19891236738489468
10
-47.500000000002345
20
55.025048040798481
10
-47.499999999999929
20
-38.608505319199665
42
0.18884899649459141
10
-46.435999999973667
20
-41.325103191519723
42
-0.18884899649267817
10
-44.83999999999952
20
-45.400000000001626
10
-44.839999999998597
20
-64.108286065197717
42
0.41421356237307111
10
-42.33999999999881
20
-66.608286065197433
10
13.651441024664024
20
-66.608286065202265
42
0.28992651085088011
10
15.911145542601748
20
-65.177741763963652
42
-0.31267814301710173
10
23.808866666673293
20
-60.627826171264083
42
0.43886622996578012
10
28.142200000000557
20
-56.64173925690335
10
28.142199999997715
20
58.245548849877196
42
0.44113547159658256
0
LWPOLYLINE
5
101
100
AcDbEntity
8
0
100
AcDbPolyline
90
4
70
1
43
0.0
10
46.692658057101966
20
83.500000000004206
42
-0.99999999999999989
10
46.692658057100118
20
77.500000000002274
10
38.692658057097091
20
77.500000000002558
42
-0.99999999999999989
10
38.692658057098228
20
83.500000000001648
0
LWPOLYLINE
5
102
100
AcDbEntity
8
0
100
AcDbPolyline
90
4
70
1
43
0.0
10
-46.692658057095429
20
-83.500000000000512
10
-38.692658057098654
20
-83.499999999999091
42
0.99999999999999989
10
-38.692658057095102
20
-77.499999999998863
10
-46.692658057098413
20
-77.499999999999147
42
0.99999999999999989
0
CIRCLE
5
103
100
AcDbEntity
8
0
100
AcDbCircle
10
-40.857800000001703
20
69.200000000002149
30
0
40
2.1250000000011227
210
0
220
0
230
1
0
CIRCLE
5
104
100
AcDbEntity
8
0
100
AcDbCircle
10
-50.840000000003585
20
-45.400000000002763
30
0
40
2.1250000000006963
210
0
220
0
230
1
0
LWPOLYLINE
5
105
100
AcDbEntity
8
0
100
AcDbPolyline
90
4
70
1
43
0.0
10
-38.692658057098583
20
83.500000000001648
10
-46.692658057102818
20
83.499999999999375
42
0.99999999999999989
10
-46.692658057102392
20
77.499999999999147
10
-38.692658057100573
20
77.500000000000853
42
0.99999999999999989
0
CIRCLE
5
106
100
AcDbEntity
8
0
100
AcDbCircle
10
23.142200000004536
20
-68.600000000001558
30
0
40
2.1250000000005542
210
0
220
0
230
1
0
CIRCLE
5
107
100
AcDbEntity
8
0
100
AcDbCircle
10
23.1422000000277
20
69.200000000013233
30
0
40
2.1249999999998437
210
0
220
0
230
1
0
LWPOLYLINE
5
108
100
AcDbEntity
8
0
100
AcDbPolyline
90
4
70
1
43
0.0
10
46.692658057108929
20
-77.499999999997726
10
38.692658057101283
20
-77.499999999997158
42
0.99999999999999989
10
38.692658057101568
20
-83.499999999997954
10
46.692658057101397
20
-83.499999999997385
42
0.99999999999999989
0
LINE
5
109
100
AcDbEntity
8
0
100
AcDbLine
10
57.499999999995879
20
-116.00000000000165
30
0
11
57.499999999997655
21
-75.000000000002842
31
0
0
LINE
5
110
100
AcDbEntity
8
0
100
AcDbLine
10
57.499999999997655
20
-75.000000000002842
30
0
11
61.499999999997641
21
-75.000000000000568
31
0
0
ARC
5
111
100
AcDbEntity
8
0
100
AcDbCircle
10
61.49999999999828
20
-72.500000000001705
30
0
40
2.4999999999988631
210
0
220
0
230
1
100
AcDbArc
50
269.99999999998533
51
360
0
LINE
5
112
100
AcDbEntity
8
0
100
AcDbLine
10
63.999999999997144
20
-72.500000000003126
30
0
11
63.999999999997925
21
-67.500000000002274
31
0
0
ARC
5
113
100
AcDbEntity
8
0
100
AcDbCircle
10
61.499999999998494
20
-67.500000000001705
30
0
40
2.4999999999994316
210
0
220
0
230
1
100
AcDbArc
50
0
51
90.000000000009777
0
LINE
5
114
100
AcDbEntity
8
0
100
AcDbLine
10
61.499999999998067
20
-65.000000000002274
30
0
11
57.499999999998082
21
-65.000000000003126
31
0
0
LINE
5
115
100
AcDbEntity
8
0
100
AcDbLine
10
57.499999999998082
20
-65.000000000003126
30
0
11
57.500000000000355
21
39.999999999996874
31
0
0
LINE
5
116
100
AcDbEntity
8
0
100
AcDbLine
10
57.500000000000355
20
39.999999999996874
30
0
11
61.500000000000341
21
39.999999999997442
31
0
0
ARC
5
117
100
AcDbEntity
8
0
100
AcDbCircle
10
61.499999999999709
20
42.499999999997151
30
0
40
2.4999999999997069
210
0
220
0
230
1
100
AcDbArc
50
270.0000000000145
51
360
0
LINE
5
118
100
AcDbEntity
8
0
100
AcDbLine
10
63.999999999999417
20
42.499999999996874
30
0
11
64.000000000002117
21
47.499999999996874
31
0
0
ARC
5
119
100
AcDbEntity
8
0
100
AcDbCircle
10
61.500000000000973
20
47.499999999996867
30
0
40
2.5000000000011458
210
0
220
-0
230
1
100
AcDbArc
50
0
51
90.000000000014495
0
LINE
5
120
100
AcDbEntity
8
0
100
AcDbLine
10
61.500000000000341
20
49.99999999999801
30
0
11
57.500000000000355
21
49.999999999997158
31
0
0
LINE
5
121
100
AcDbEntity
8
0
100
AcDbLine
10
57.500000000000355
20
49.999999999997158
30
0
11
57.500000000000711
21
64.999999999996874
31
0
0
LINE
5
122
100
AcDbEntity
8
0
100
AcDbLine
10
57.500000000000711
20
64.999999999996874
30
0
11
61.500000000000767
21
64.999999999997158
31
0
0
ARC
5
123
100
AcDbEntity
8
0
100
AcDbCircle
10
61.499999999999702
20
67.499999999997172
30
0
40
2.5000000000000089
210
0
220
0
230
1
100
AcDbArc
50
270.00000000002444
51
360
0
LINE
5
124
100
AcDbEntity
8
0
100
AcDbLine
10
63.99999999999978
20
67.499999999996874
30
0
11
64.00000000000226
21
72.499999999997158
31
0
0
ARC
5
125
100
AcDbEntity
8
0
100
AcDbCircle
10
61.500000000001691
20
72.499999999996874
30
0
40
2.5000000000005684
210
0
220
-0
230
1
100
AcDbArc
50
0
51
90.000000000009777
0
LINE
5
126
100
AcDbEntity
8
0
100
AcDbLine
10
61.500000000001265
20
74.999999999997442
30
0
11
57.500000000001279
21
74.999999999997158
31
0
0
LINE
5
127
100
AcDbEntity
8
0
100
AcDbLine
10
57.500000000001279
20
74.999999999997158
30
0
11
57.500000000002487
21
115.99999657208201
31
0
0
ARC
5
128
100
AcDbEntity
8
0
100
AcDbCircle
10
55.000000000004121
20
115.99999999999683
30
0
40
2.5000000000011369
210
0
220
-0
230
1
100
AcDbArc
50
0
51
90.000000000042348
0
LINE
5
129
100
AcDbEntity
8
0
100
AcDbLine
10
55.000000000002274
20
118.49999999999797
30
0
11
47.000000000002444
21
118.49999999999739
31
0
0
LINE
5
130
100
AcDbEntity
8
0
100
AcDbLine
10
47.000000000002444
20
118.49999999999739
30
0
11
47.000000000003084
21
125.99999999999881
31
0
0
ARC
5
131
100
AcDbEntity
8
0
100
AcDbCircle
10
46.000000000003283
20
125.99999999999824
30
0
40
0.99999999999980105
210
0
220
-0
230
1
100
AcDbArc
50
0
51
89.999999999991857
0
LINE
5
132
100
AcDbEntity
8
0
100
AcDbLine
10
46.000000000003425
20
126.99999999999818
30
0
11
-45.999999999996248
21
127.00000000000102
31
0
0
ARC
5
133
100
AcDbEntity
8
0
100
AcDbCircle
10
-45.999999999997534
20
126.00000000000222
30
0
40
0.99999999999880629
210
0
220
-0
230
1
100
AcDbArc
50
89.999999999926303
51
180
0
LINE
5
134
100
AcDbEntity
8
0
100
AcDbLine
10
-46.999999999996412
20
126.00000000000165
30
0
11
-46.999999999997115
21
118.49999999999994
31
0
0
LINE
5
135
100
AcDbEntity
8
0
100
AcDbLine
10
-46.999999999997115
20
118.49999999999994
30
0
11
-54.999999999997158
21
118.49999999999909
31
0
0
ARC
5
136
100
AcDbEntity
8
0
100
AcDbCircle
10
-54.999999999997591
20
116.00000000000024
30
0
40
2.4999999999988454
210
0
220
-0
230
1
100
AcDbArc
50
89.999999999990067
51
180
0
LINE
5
137
100
AcDbEntity
8
0
100
AcDbLine
10
-57.499999999996582
20
116.00000000000136
30
0
11
-57.49999999999801
21
92.000000000001307
31
0
0
LINE
5
138
100
AcDbEntity
8
0
100
AcDbLine
10
-57.49999999999801
20
92.000000000001307
30
0
11
-55.499999999998053
21
92.000000000001307
31
0
0
LINE
5
139
100
AcDbEntity
8
0
100
AcDbLine
10
-55.499999999998053
20
92.000000000001307
30
0
11
-55.499999999998053
21
68.000000000000114
31
0
0
LINE
5
140
100
AcDbEntity
8
0
100
AcDbLine
10
-55.499999999998053
20
68.000000000000114
30
0
11
-61.499999999998565
21
68.000000000000966
31
0
0
ARC
5
141
100
AcDbEntity
8
0
100
AcDbCircle
10
-61.499999999998707
20
65.500000000000398
30
0
40
2.5000000000005684
210
0
220
-0
230
1
100
AcDbArc
50
89.999999999996746
51
180
0
LINE
5
142
100
AcDbEntity
8
0
100
AcDbLine
10
-63.999999999999204
20
65.500000000001251
30
0
11
-63.99999999999757
21
54.500000000001307
31
0
0
ARC
5
143
100
AcDbEntity
8
0
100
AcDbCircle
10
-61.499999999997577
20
54.500000000001307
30
0
40
2.4999999999999911
210
0
220
0
230
1
100
AcDbArc
50
180
51
269.9999999999676
0
LINE
5
144
100
AcDbEntity
8
0
100
AcDbLine
10
-61.499999999998991
20
52.000000000001315
30
0
11
-57.499999999999076
21
52.000000000001023
31
0
0
LINE
5
145
100
AcDbEntity
8
0
100
AcDbLine
10
-57.499999999999076
20
52.000000000001023
30
0
11
-57.500000000001634
21
-51.999999999997897
31
0
0
LINE
5
146
100
AcDbEntity
8
0
100
AcDbLine
10
-57.500000000001634
20
-51.999999999997897
30
0
11
-61.500000000001691
21
-52.000000000000171
31
0
0
ARC
5
147
100
AcDbEntity
8
0
100
AcDbCircle
10
-61.500000000004107
20
-54.499999999997613
30
0
40
2.499999999997442
210
0
220
-0
230
1
100
AcDbArc
50
89.999999999944635
51
180
0
LINE
5
148
100
AcDbEntity
8
0
100
AcDbLine
10
-64.00000000000162
20
-54.499999999997613
30
0
11
-64.000000000002331
21
-65.49999999999784
31
0
0
ARC
5
149
100
AcDbEntity
8
0
100
AcDbCircle
10
-61.500000000000334
20
-65.499999999996703
30
0
40
2.5000000000019984
210
0
220
0
230
1
100
AcDbArc
50
180
51
269.99999999995913
0
LINE
5
150
100
AcDbEntity
8
0
100
AcDbLine
10
-61.500000000002117
20
-67.999999999998707
30
0
11
-55.500000000002743
21
-67.999999999997556
31
0
0
LINE
5
151
100
AcDbEntity
8
0
100
AcDbLine
10
-55.500000000002743
20
-67.999999999997556
30
0
11
-55.500000000002814
21
-91.999999999997613
31
0
0
LINE
5
152
100
AcDbEntity
8
0
100
AcDbLine
10
-55.500000000002814
20
-91.999999999997613
30
0
11
-57.500000000002842
21
-91.999999999997613
31
0
0
LINE
5
153
100
AcDbEntity
8
0
100
AcDbLine
10
-57.500000000002842
20
-91.999999999997613
30
0
11
-57.500000000003126
21
-115.99999999999966
31
0
0
ARC
5
154
100
AcDbEntity
8
0
100
AcDbCircle
10
-55.000000000000796
20
-115.99999999999682
30
0
40
2.500000000002327
210
0
220
0
230
1
100
AcDbArc
50
180
51
269.99999999993844
0
LINE
5
155
100
AcDbEntity
8
0
100
AcDbLine
10
-55.000000000003482
20
-118.49999999999908
30
0
11
-47.00000000000351
21
-118.49999999999767
31
0
0
LINE
5
156
100
AcDbEntity
8
0
100
AcDbLine
10
-47.00000000000351
20
-118.49999999999767
30
0
11
-47.000000000001734
21
-125.99999999999767
31
0
0
ARC
5
157
100
AcDbEntity
8
0
100
AcDbCircle
10
-46.000000000003489
20
-126.00000000000135
30
0
40
0.99999999999824674
210
0
220
0
230
1
100
AcDbArc
50
180
51
269.99999999998738
0
LINE
5
158
100
AcDbEntity
8
0
100
AcDbLine
10
-46.000000000003709
20
-126.9999999999996
30
0
11
45.999999999996248
21
-126.99999999999932
31
0
0
ARC
5
159
100
AcDbEntity
8
0
100
AcDbCircle
10
45.9999999999959
20
-125.99999999999967
30
0
40
0.99999999999964118
210
0
220
0
230
1
100
AcDbArc
50
270.00000000001995
51
360
0
LINE
5
160
100
AcDbEntity
8
0
100
AcDbLine
10
46.999999999995403
20
-126.00000000000136
30
0
11
46.999999999996476
21
-118.50000000000165
31
0
0
LINE
5
161
100
AcDbEntity
8
0
100
AcDbLine
10
46.999999999996476
20
-118.50000000000165
30
0
11
54.999999999996447
21
-118.5000000000025
31
0
0
ARC
5
162
100
AcDbEntity
8
0
100
AcDbCircle
10
54.999999999995083
20
-116.00000000000163
30
0
40
2.5000000000008704
210
0
220
0
230
1
100
AcDbArc
50
270.00000000003126
51
360
0
ENDSEC
0
SECTION
2
OBJECTS
0
DICTIONARY
5
C
100
AcDbDictionary
3
ACAD_GROUP
350
D
3
ACAD_MLINESTYLE
350
17
0
DICTIONARY
5
D
100
AcDbDictionary
0
DICTIONARY
5
1A
330
C
100
AcDbDictionary
0
DICTIONARY
5
17
100
AcDbDictionary
0
ENDSEC
0
EOF
